ISO-10303-21;
HEADER;
FILE_DESCRIPTION(('Creo Elements/Direct Modeling STEP Export'),'2;1');
FILE_NAME(
'C:/Users/TECCAD~1/AppData/Local/Temp/0lndrp34e9mqi6p4572/0lndrp34e9mqi6
q4572','2017-12-19T13:42:17',(''),(''),
'PTC Creo Elements/Direct Modeling STEP processor for AP214 (Solid Model
)',
'PTC Creo Elements/Direct Modeling 19.0E  27-Jun-2016 (C) Parametric Tec
hnology GmbH','');
FILE_SCHEMA(('AUTOMOTIVE_DESIGN { 1 0 10303 214 1 1 1 1 }'));
ENDSEC;
DATA;
#10=CARTESIAN_POINT('',(0.,0.,7.5));
#20=DIRECTION('',(0.,0.,-1.));
#30=DIRECTION('',(-1.,0.,0.));
#40=AXIS2_PLACEMENT_3D('',#10,#20,#30);
#50=CYLINDRICAL_SURFACE('',#40,21.);
#60=CARTESIAN_POINT('',(-19.,-8.94427190999916,7.5));
#70=DIRECTION('',(0.,0.,-1.));
#80=VECTOR('',#70,1000.);
#90=LINE('',#60,#80);
#100=CARTESIAN_POINT('',(-19.,-8.94427190999916,7.5));
#110=VERTEX_POINT('',#100);
#120=CARTESIAN_POINT('',(-19.,-8.94427190999916,0.));
#130=VERTEX_POINT('',#120);
#140=EDGE_CURVE('',#110,#130,#90,.T.);
#150=ORIENTED_EDGE('',*,*,#140,.T.);
#160=CARTESIAN_POINT('',(0.,0.,7.5));
#170=DIRECTION('',(0.,0.,1.));
#180=DIRECTION('',(1.,0.,0.));
#190=AXIS2_PLACEMENT_3D('',#160,#170,#180);
#200=CIRCLE('',#190,21.);
#210=CARTESIAN_POINT('',(-17.2459666924148,-11.9823467169048,7.5));
#220=VERTEX_POINT('',#210);
#230=EDGE_CURVE('',#110,#220,#200,.T.);
#240=ORIENTED_EDGE('',*,*,#230,.F.);
#250=CARTESIAN_POINT('',(-17.2459666924148,-11.9823467169048,7.5));
#260=DIRECTION('',(0.,0.,-1.));
#270=VECTOR('',#260,1000.);
#280=LINE('',#250,#270);
#290=CARTESIAN_POINT('',(-17.2459666924148,-11.9823467169048,0.));
#300=VERTEX_POINT('',#290);
#310=EDGE_CURVE('',#220,#300,#280,.T.);
#320=ORIENTED_EDGE('',*,*,#310,.F.);
#330=CARTESIAN_POINT('',(0.,0.,0.));
#340=DIRECTION('',(0.,0.,1.));
#350=DIRECTION('',(1.,0.,0.));
#360=AXIS2_PLACEMENT_3D('',#330,#340,#350);
#370=CIRCLE('',#360,21.);
#380=EDGE_CURVE('',#130,#300,#370,.T.);
#390=ORIENTED_EDGE('',*,*,#380,.T.);
#400=EDGE_LOOP('',(#390,#320,#240,#150));
#410=FACE_OUTER_BOUND('',#400,.T.);
#420=ADVANCED_FACE('',(#410),#50,.T.);
#430=CARTESIAN_POINT('',(-19.,8.94427190999917,7.5));
#440=DIRECTION('',(1.,0.,0.));
#450=DIRECTION('',(0.,0.,-1.));
#460=AXIS2_PLACEMENT_3D('',#430,#440,#450);
#470=PLANE('',#460);
#480=CARTESIAN_POINT('',(-19.,8.94427190999917,7.5));
#490=DIRECTION('',(0.,0.,-1.));
#500=VECTOR('',#490,1000.);
#510=LINE('',#480,#500);
#520=CARTESIAN_POINT('',(-19.,8.94427190999917,7.5));
#530=VERTEX_POINT('',#520);
#540=CARTESIAN_POINT('',(-19.,8.94427190999917,0.));
#550=VERTEX_POINT('',#540);
#560=EDGE_CURVE('',#530,#550,#510,.T.);
#570=ORIENTED_EDGE('',*,*,#560,.T.);
#580=CARTESIAN_POINT('',(-19.,8.94427190999917,7.5));
#590=DIRECTION('',(0.,-1.,0.));
#600=VECTOR('',#590,1000.);
#610=LINE('',#580,#600);
#620=EDGE_CURVE('',#530,#110,#610,.T.);
#630=ORIENTED_EDGE('',*,*,#620,.F.);
#640=ORIENTED_EDGE('',*,*,#140,.F.);
#650=CARTESIAN_POINT('',(-19.,8.94427190999917,0.));
#660=DIRECTION('',(0.,-1.,0.));
#670=VECTOR('',#660,1000.);
#680=LINE('',#650,#670);
#690=EDGE_CURVE('',#550,#130,#680,.T.);
#700=ORIENTED_EDGE('',*,*,#690,.T.);
#710=EDGE_LOOP('',(#700,#640,#630,#570));
#720=FACE_OUTER_BOUND('',#710,.T.);
#730=ADVANCED_FACE('',(#720),#470,.F.);
#740=CARTESIAN_POINT('',(0.,0.,7.5));
#750=DIRECTION('',(0.,0.,1.));
#760=DIRECTION('',(1.,0.,0.));
#770=AXIS2_PLACEMENT_3D('',#740,#750,#760);
#780=PLANE('',#770);
#790=CARTESIAN_POINT('',(0.,0.,7.5));
#800=DIRECTION('',(0.,0.,-1.));
#810=DIRECTION('',(1.,0.,0.));
#820=AXIS2_PLACEMENT_3D('',#790,#800,#810);
#830=CIRCLE('',#820,16.3);
#840=CARTESIAN_POINT('',(16.3,0.,7.5));
#850=VERTEX_POINT('',#840);
#860=CARTESIAN_POINT('',(-16.3,1.99617428261019E-15,7.5));
#870=VERTEX_POINT('',#860);
#880=EDGE_CURVE('',#850,#870,#830,.T.);
#890=ORIENTED_EDGE('',*,*,#880,.T.);
#900=EDGE_CURVE('',#870,#850,#830,.T.);
#910=ORIENTED_EDGE('',*,*,#900,.T.);
#920=EDGE_LOOP('',(#910,#890));
#930=FACE_BOUND('',#920,.T.);
#940=CARTESIAN_POINT('',(1.75403330758518,-20.9266186269039,7.5));
#950=DIRECTION('',(0.866025403784438,0.500000000000001,0.));
#960=VECTOR('',#950,1000.);
#970=LINE('',#940,#960);
#980=CARTESIAN_POINT('',(1.75403330758518,-20.9266186269039,7.5));
#990=VERTEX_POINT('',#980);
#1000=CARTESIAN_POINT('',(17.2459666924148,-11.9823467169048,7.5));
#1010=VERTEX_POINT('',#1000);
#1020=EDGE_CURVE('',#990,#1010,#970,.T.);
#1030=ORIENTED_EDGE('',*,*,#1020,.T.);
#1040=CARTESIAN_POINT('',(0.,0.,7.5));
#1050=DIRECTION('',(0.,0.,1.));
#1060=DIRECTION('',(1.,0.,0.));
#1070=AXIS2_PLACEMENT_3D('',#1040,#1050,#1060);
#1080=CIRCLE('',#1070,21.);
#1090=CARTESIAN_POINT('',(-1.75403330758518,-20.9266186269039,7.5));
#1100=VERTEX_POINT('',#1090);
#1110=EDGE_CURVE('',#1100,#990,#1080,.T.);
#1120=ORIENTED_EDGE('',*,*,#1110,.T.);
#1130=CARTESIAN_POINT('',(-17.2459666924148,-11.9823467169048,7.5));
#1140=DIRECTION('',(0.866025403784439,-0.5,0.));
#1150=VECTOR('',#1140,1000.);
#1160=LINE('',#1130,#1150);
#1170=EDGE_CURVE('',#220,#1100,#1160,.T.);
#1180=ORIENTED_EDGE('',*,*,#1170,.T.);
#1190=ORIENTED_EDGE('',*,*,#230,.T.);
#1200=ORIENTED_EDGE('',*,*,#620,.T.);
#1210=CARTESIAN_POINT('',(0.,0.,7.5));
#1220=DIRECTION('',(0.,0.,1.));
#1230=DIRECTION('',(1.,0.,0.));
#1240=AXIS2_PLACEMENT_3D('',#1210,#1220,#1230);
#1250=CIRCLE('',#1240,21.);
#1260=CARTESIAN_POINT('',(-17.2459666924148,11.9823467169047,7.5));
#1270=VERTEX_POINT('',#1260);
#1280=EDGE_CURVE('',#1270,#530,#1250,.T.);
#1290=ORIENTED_EDGE('',*,*,#1280,.T.);
#1300=CARTESIAN_POINT('',(-1.75403330758515,20.9266186269039,7.5));
#1310=DIRECTION('',(-0.866025403784439,-0.5,0.));
#1320=VECTOR('',#1310,1000.);
#1330=LINE('',#1300,#1320);
#1340=CARTESIAN_POINT('',(-1.75403330758515,20.9266186269039,7.5));
#1350=VERTEX_POINT('',#1340);
#1360=EDGE_CURVE('',#1350,#1270,#1330,.T.);
#1370=ORIENTED_EDGE('',*,*,#1360,.T.);
#1380=CARTESIAN_POINT('',(0.,0.,7.5));
#1390=DIRECTION('',(0.,0.,1.));
#1400=DIRECTION('',(1.,0.,0.));
#1410=AXIS2_PLACEMENT_3D('',#1380,#1390,#1400);
#1420=CIRCLE('',#1410,21.);
#1430=CARTESIAN_POINT('',(1.75403330758514,20.9266186269039,7.5));
#1440=VERTEX_POINT('',#1430);
#1450=EDGE_CURVE('',#1440,#1350,#1420,.T.);
#1460=ORIENTED_EDGE('',*,*,#1450,.T.);
#1470=CARTESIAN_POINT('',(17.2459666924149,11.9823467169047,7.5));
#1480=DIRECTION('',(-0.866025403784438,0.5,0.));
#1490=VECTOR('',#1480,1000.);
#1500=LINE('',#1470,#1490);
#1510=CARTESIAN_POINT('',(17.2459666924149,11.9823467169047,7.5));
#1520=VERTEX_POINT('',#1510);
#1530=EDGE_CURVE('',#1520,#1440,#1500,.T.);
#1540=ORIENTED_EDGE('',*,*,#1530,.T.);
#1550=CARTESIAN_POINT('',(0.,0.,7.5));
#1560=DIRECTION('',(0.,0.,1.));
#1570=DIRECTION('',(1.,0.,0.));
#1580=AXIS2_PLACEMENT_3D('',#1550,#1560,#1570);
#1590=CIRCLE('',#1580,21.);
#1600=CARTESIAN_POINT('',(19.,8.94427190999916,7.5));
#1610=VERTEX_POINT('',#1600);
#1620=EDGE_CURVE('',#1610,#1520,#1590,.T.);
#1630=ORIENTED_EDGE('',*,*,#1620,.T.);
#1640=CARTESIAN_POINT('',(19.,-8.94427190999916,7.5));
#1650=DIRECTION('',(0.,1.,0.));
#1660=VECTOR('',#1650,1000.);
#1670=LINE('',#1640,#1660);
#1680=CARTESIAN_POINT('',(19.,-8.94427190999916,7.5));
#1690=VERTEX_POINT('',#1680);
#1700=EDGE_CURVE('',#1690,#1610,#1670,.T.);
#1710=ORIENTED_EDGE('',*,*,#1700,.T.);
#1720=CARTESIAN_POINT('',(0.,0.,7.5));
#1730=DIRECTION('',(0.,0.,1.));
#1740=DIRECTION('',(1.,0.,0.));
#1750=AXIS2_PLACEMENT_3D('',#1720,#1730,#1740);
#1760=CIRCLE('',#1750,21.);
#1770=EDGE_CURVE('',#1010,#1690,#1760,.T.);
#1780=ORIENTED_EDGE('',*,*,#1770,.T.);
#1790=EDGE_LOOP('',(#1780,#1710,#1630,#1540,#1460,#1370,#1290,#1200,
#1190,#1180,#1120,#1030));
#1800=FACE_OUTER_BOUND('',#1790,.T.);
#1810=ADVANCED_FACE('',(#930,#1800),#780,.T.);
#1820=CARTESIAN_POINT('',(0.,0.,0.));
#1830=DIRECTION('',(0.,0.,1.));
#1840=DIRECTION('',(1.,0.,0.));
#1850=AXIS2_PLACEMENT_3D('',#1820,#1830,#1840);
#1860=PLANE('',#1850);
#1870=CARTESIAN_POINT('',(0.,0.,0.));
#1880=DIRECTION('',(0.,0.,1.));
#1890=DIRECTION('',(1.,0.,0.));
#1900=AXIS2_PLACEMENT_3D('',#1870,#1880,#1890);
#1910=CIRCLE('',#1900,16.3);
#1920=CARTESIAN_POINT('',(16.3,1.99617428261019E-15,4.0367958784417E-36)
);
#1930=VERTEX_POINT('',#1920);
#1940=CARTESIAN_POINT('',(-16.3,0.,0.));
#1950=VERTEX_POINT('',#1940);
#1960=EDGE_CURVE('',#1930,#1950,#1910,.T.);
#1970=ORIENTED_EDGE('',*,*,#1960,.T.);
#1980=EDGE_CURVE('',#1950,#1930,#1910,.T.);
#1990=ORIENTED_EDGE('',*,*,#1980,.T.);
#2000=EDGE_LOOP('',(#1990,#1970));
#2010=FACE_BOUND('',#2000,.T.);
#2020=CARTESIAN_POINT('',(19.,-8.94427190999916,0.));
#2030=DIRECTION('',(0.,1.,0.));
#2040=VECTOR('',#2030,1000.);
#2050=LINE('',#2020,#2040);
#2060=CARTESIAN_POINT('',(19.,-8.94427190999916,0.));
#2070=VERTEX_POINT('',#2060);
#2080=CARTESIAN_POINT('',(19.,8.94427190999916,0.));
#2090=VERTEX_POINT('',#2080);
#2100=EDGE_CURVE('',#2070,#2090,#2050,.T.);
#2110=ORIENTED_EDGE('',*,*,#2100,.F.);
#2120=CARTESIAN_POINT('',(0.,0.,0.));
#2130=DIRECTION('',(0.,0.,1.));
#2140=DIRECTION('',(1.,0.,0.));
#2150=AXIS2_PLACEMENT_3D('',#2120,#2130,#2140);
#2160=CIRCLE('',#2150,21.);
#2170=CARTESIAN_POINT('',(17.2459666924149,11.9823467169047,0.));
#2180=VERTEX_POINT('',#2170);
#2190=EDGE_CURVE('',#2090,#2180,#2160,.T.);
#2200=ORIENTED_EDGE('',*,*,#2190,.F.);
#2210=CARTESIAN_POINT('',(17.2459666924149,11.9823467169047,0.));
#2220=DIRECTION('',(-0.866025403784438,0.5,0.));
#2230=VECTOR('',#2220,1000.);
#2240=LINE('',#2210,#2230);
#2250=CARTESIAN_POINT('',(1.75403330758514,20.9266186269039,0.));
#2260=VERTEX_POINT('',#2250);
#2270=EDGE_CURVE('',#2180,#2260,#2240,.T.);
#2280=ORIENTED_EDGE('',*,*,#2270,.F.);
#2290=CARTESIAN_POINT('',(0.,0.,0.));
#2300=DIRECTION('',(0.,0.,1.));
#2310=DIRECTION('',(1.,0.,0.));
#2320=AXIS2_PLACEMENT_3D('',#2290,#2300,#2310);
#2330=CIRCLE('',#2320,21.);
#2340=CARTESIAN_POINT('',(-1.75403330758515,20.9266186269039,0.));
#2350=VERTEX_POINT('',#2340);
#2360=EDGE_CURVE('',#2260,#2350,#2330,.T.);
#2370=ORIENTED_EDGE('',*,*,#2360,.F.);
#2380=CARTESIAN_POINT('',(-1.75403330758515,20.9266186269039,0.));
#2390=DIRECTION('',(-0.866025403784439,-0.5,0.));
#2400=VECTOR('',#2390,1000.);
#2410=LINE('',#2380,#2400);
#2420=CARTESIAN_POINT('',(-17.2459666924148,11.9823467169047,0.));
#2430=VERTEX_POINT('',#2420);
#2440=EDGE_CURVE('',#2350,#2430,#2410,.T.);
#2450=ORIENTED_EDGE('',*,*,#2440,.F.);
#2460=CARTESIAN_POINT('',(0.,0.,0.));
#2470=DIRECTION('',(0.,0.,1.));
#2480=DIRECTION('',(1.,0.,0.));
#2490=AXIS2_PLACEMENT_3D('',#2460,#2470,#2480);
#2500=CIRCLE('',#2490,21.);
#2510=EDGE_CURVE('',#2430,#550,#2500,.T.);
#2520=ORIENTED_EDGE('',*,*,#2510,.F.);
#2530=ORIENTED_EDGE('',*,*,#690,.F.);
#2540=ORIENTED_EDGE('',*,*,#380,.F.);
#2550=CARTESIAN_POINT('',(-17.2459666924148,-11.9823467169048,0.));
#2560=DIRECTION('',(0.866025403784439,-0.5,0.));
#2570=VECTOR('',#2560,1000.);
#2580=LINE('',#2550,#2570);
#2590=CARTESIAN_POINT('',(-1.75403330758518,-20.9266186269039,0.));
#2600=VERTEX_POINT('',#2590);
#2610=EDGE_CURVE('',#300,#2600,#2580,.T.);
#2620=ORIENTED_EDGE('',*,*,#2610,.F.);
#2630=CARTESIAN_POINT('',(0.,0.,0.));
#2640=DIRECTION('',(0.,0.,1.));
#2650=DIRECTION('',(1.,0.,0.));
#2660=AXIS2_PLACEMENT_3D('',#2630,#2640,#2650);
#2670=CIRCLE('',#2660,21.);
#2680=CARTESIAN_POINT('',(1.75403330758518,-20.9266186269039,0.));
#2690=VERTEX_POINT('',#2680);
#2700=EDGE_CURVE('',#2600,#2690,#2670,.T.);
#2710=ORIENTED_EDGE('',*,*,#2700,.F.);
#2720=CARTESIAN_POINT('',(1.75403330758518,-20.9266186269039,0.));
#2730=DIRECTION('',(0.866025403784438,0.500000000000001,0.));
#2740=VECTOR('',#2730,1000.);
#2750=LINE('',#2720,#2740);
#2760=CARTESIAN_POINT('',(17.2459666924148,-11.9823467169048,0.));
#2770=VERTEX_POINT('',#2760);
#2780=EDGE_CURVE('',#2690,#2770,#2750,.T.);
#2790=ORIENTED_EDGE('',*,*,#2780,.F.);
#2800=CARTESIAN_POINT('',(0.,0.,0.));
#2810=DIRECTION('',(0.,0.,1.));
#2820=DIRECTION('',(1.,0.,0.));
#2830=AXIS2_PLACEMENT_3D('',#2800,#2810,#2820);
#2840=CIRCLE('',#2830,21.);
#2850=EDGE_CURVE('',#2770,#2070,#2840,.T.);
#2860=ORIENTED_EDGE('',*,*,#2850,.F.);
#2870=EDGE_LOOP('',(#2860,#2790,#2710,#2620,#2540,#2530,#2520,#2450,
#2370,#2280,#2200,#2110));
#2880=FACE_OUTER_BOUND('',#2870,.T.);
#2890=ADVANCED_FACE('',(#2010,#2880),#1860,.F.);
#2900=CARTESIAN_POINT('',(-17.2459666924148,-11.9823467169048,7.5));
#2910=DIRECTION('',(0.5,0.866025403784439,0.));
#2920=DIRECTION('',(-0.866025403784439,0.5,0.));
#2930=AXIS2_PLACEMENT_3D('',#2900,#2910,#2920);
#2940=PLANE('',#2930);
#2950=ORIENTED_EDGE('',*,*,#310,.T.);
#2960=ORIENTED_EDGE('',*,*,#1170,.F.);
#2970=CARTESIAN_POINT('',(-1.75403330758518,-20.9266186269039,7.5));
#2980=DIRECTION('',(0.,0.,-1.));
#2990=VECTOR('',#2980,1000.);
#3000=LINE('',#2970,#2990);
#3010=EDGE_CURVE('',#1100,#2600,#3000,.T.);
#3020=ORIENTED_EDGE('',*,*,#3010,.F.);
#3030=ORIENTED_EDGE('',*,*,#2610,.T.);
#3040=EDGE_LOOP('',(#3030,#3020,#2960,#2950));
#3050=FACE_OUTER_BOUND('',#3040,.T.);
#3060=ADVANCED_FACE('',(#3050),#2940,.F.);
#3070=CARTESIAN_POINT('',(0.,0.,7.5));
#3080=DIRECTION('',(0.,0.,-1.));
#3090=DIRECTION('',(-1.,0.,0.));
#3100=AXIS2_PLACEMENT_3D('',#3070,#3080,#3090);
#3110=CYLINDRICAL_SURFACE('',#3100,21.);
#3120=CARTESIAN_POINT('',(-17.2459666924148,11.9823467169047,7.5));
#3130=DIRECTION('',(0.,0.,-1.));
#3140=VECTOR('',#3130,1000.);
#3150=LINE('',#3120,#3140);
#3160=EDGE_CURVE('',#1270,#2430,#3150,.T.);
#3170=ORIENTED_EDGE('',*,*,#3160,.T.);
#3180=ORIENTED_EDGE('',*,*,#1280,.F.);
#3190=ORIENTED_EDGE('',*,*,#560,.F.);
#3200=ORIENTED_EDGE('',*,*,#2510,.T.);
#3210=EDGE_LOOP('',(#3200,#3190,#3180,#3170));
#3220=FACE_OUTER_BOUND('',#3210,.T.);
#3230=ADVANCED_FACE('',(#3220),#3110,.T.);
#3240=CARTESIAN_POINT('',(19.,-8.94427190999916,7.5));
#3250=DIRECTION('',(-1.,0.,0.));
#3260=DIRECTION('',(0.,0.,1.));
#3270=AXIS2_PLACEMENT_3D('',#3240,#3250,#3260);
#3280=PLANE('',#3270);
#3290=CARTESIAN_POINT('',(19.,-8.94427190999916,7.5));
#3300=DIRECTION('',(0.,0.,-1.));
#3310=VECTOR('',#3300,1000.);
#3320=LINE('',#3290,#3310);
#3330=EDGE_CURVE('',#1690,#2070,#3320,.T.);
#3340=ORIENTED_EDGE('',*,*,#3330,.T.);
#3350=ORIENTED_EDGE('',*,*,#1700,.F.);
#3360=CARTESIAN_POINT('',(19.,8.94427190999916,7.5));
#3370=DIRECTION('',(0.,0.,-1.));
#3380=VECTOR('',#3370,1000.);
#3390=LINE('',#3360,#3380);
#3400=EDGE_CURVE('',#1610,#2090,#3390,.T.);
#3410=ORIENTED_EDGE('',*,*,#3400,.F.);
#3420=ORIENTED_EDGE('',*,*,#2100,.T.);
#3430=EDGE_LOOP('',(#3420,#3410,#3350,#3340));
#3440=FACE_OUTER_BOUND('',#3430,.T.);
#3450=ADVANCED_FACE('',(#3440),#3280,.F.);
#3460=CARTESIAN_POINT('',(0.,0.,6.49999999999998));
#3470=DIRECTION('',(0.,0.,1.));
#3480=DIRECTION('',(1.,0.,-0.));
#3490=AXIS2_PLACEMENT_3D('',#3460,#3470,#3480);
#3500=CONICAL_SURFACE('',#3490,15.3,0.785398163397444);
#3510=CARTESIAN_POINT('',(15.3,0.,6.49999999999998));
#3520=DIRECTION('',(0.707106781186544,0.,0.707106781186551));
#3530=VECTOR('',#3520,21.6374675043085);
#3540=LINE('',#3510,#3530);
#3550=CARTESIAN_POINT('',(15.3,0.,6.49999999999998));
#3560=VERTEX_POINT('',#3550);
#3570=EDGE_CURVE('',#3560,#850,#3540,.T.);
#3580=ORIENTED_EDGE('',*,*,#3570,.T.);
#3590=CARTESIAN_POINT('',(0.,0.,6.49999999999998));
#3600=DIRECTION('',(0.,0.,1.));
#3610=DIRECTION('',(1.,0.,0.));
#3620=AXIS2_PLACEMENT_3D('',#3590,#3600,#3610);
#3630=CIRCLE('',#3620,15.3);
#3640=CARTESIAN_POINT('',(-15.3,1.87370960269545E-15,6.49999999999998));
#3650=VERTEX_POINT('',#3640);
#3660=EDGE_CURVE('',#3560,#3650,#3630,.T.);
#3670=ORIENTED_EDGE('',*,*,#3660,.F.);
#3680=CARTESIAN_POINT('',(-15.3,1.87370960269545E-15,6.49999999999998));
#3690=DIRECTION('',(-0.707106781186544,8.65956056235489E-17,
0.707106781186551));
#3700=VECTOR('',#3690,21.6374675043085);
#3710=LINE('',#3680,#3700);
#3720=EDGE_CURVE('',#3650,#870,#3710,.T.);
#3730=ORIENTED_EDGE('',*,*,#3720,.F.);
#3740=ORIENTED_EDGE('',*,*,#900,.F.);
#3750=EDGE_LOOP('',(#3740,#3730,#3670,#3580));
#3760=FACE_OUTER_BOUND('',#3750,.T.);
#3770=ADVANCED_FACE('',(#3760),#3500,.F.);
#3780=CARTESIAN_POINT('',(0.,0.,7.5));
#3790=DIRECTION('',(0.,0.,-1.));
#3800=DIRECTION('',(-1.,0.,0.));
#3810=AXIS2_PLACEMENT_3D('',#3780,#3790,#3800);
#3820=CYLINDRICAL_SURFACE('',#3810,15.3);
#3830=CARTESIAN_POINT('',(15.3,1.87370960269545E-15,7.5));
#3840=DIRECTION('',(0.,0.,-1.));
#3850=VECTOR('',#3840,1.);
#3860=LINE('',#3830,#3850);
#3870=CARTESIAN_POINT('',(15.3,1.87370960269545E-15,1.00000000000002));
#3880=VERTEX_POINT('',#3870);
#3890=EDGE_CURVE('',#3560,#3880,#3860,.T.);
#3900=ORIENTED_EDGE('',*,*,#3890,.F.);
#3910=CARTESIAN_POINT('',(0.,0.,1.00000000000002));
#3920=DIRECTION('',(0.,0.,-1.));
#3930=DIRECTION('',(1.,0.,0.));
#3940=AXIS2_PLACEMENT_3D('',#3910,#3920,#3930);
#3950=CIRCLE('',#3940,15.3);
#3960=CARTESIAN_POINT('',(-15.3,0.,1.00000000000002));
#3970=VERTEX_POINT('',#3960);
#3980=EDGE_CURVE('',#3970,#3880,#3950,.T.);
#3990=ORIENTED_EDGE('',*,*,#3980,.T.);
#4000=CARTESIAN_POINT('',(-15.3,0.,7.5));
#4010=DIRECTION('',(0.,0.,-1.));
#4020=VECTOR('',#4010,1.);
#4030=LINE('',#4000,#4020);
#4040=EDGE_CURVE('',#3650,#3970,#4030,.T.);
#4050=ORIENTED_EDGE('',*,*,#4040,.T.);
#4060=ORIENTED_EDGE('',*,*,#3660,.T.);
#4070=EDGE_LOOP('',(#4060,#4050,#3990,#3900));
#4080=FACE_OUTER_BOUND('',#4070,.T.);
#4090=ADVANCED_FACE('',(#4080),#3820,.F.);
#4100=CARTESIAN_POINT('',(0.,0.,7.5));
#4110=DIRECTION('',(0.,0.,-1.));
#4120=DIRECTION('',(-1.,0.,0.));
#4130=AXIS2_PLACEMENT_3D('',#4100,#4110,#4120);
#4140=CYLINDRICAL_SURFACE('',#4130,21.);
#4150=ORIENTED_EDGE('',*,*,#3400,.T.);
#4160=ORIENTED_EDGE('',*,*,#1620,.F.);
#4170=CARTESIAN_POINT('',(17.2459666924149,11.9823467169047,7.5));
#4180=DIRECTION('',(0.,0.,-1.));
#4190=VECTOR('',#4180,1000.);
#4200=LINE('',#4170,#4190);
#4210=EDGE_CURVE('',#1520,#2180,#4200,.T.);
#4220=ORIENTED_EDGE('',*,*,#4210,.F.);
#4230=ORIENTED_EDGE('',*,*,#2190,.T.);
#4240=EDGE_LOOP('',(#4230,#4220,#4160,#4150));
#4250=FACE_OUTER_BOUND('',#4240,.T.);
#4260=ADVANCED_FACE('',(#4250),#4140,.T.);
#4270=CARTESIAN_POINT('',(0.,0.,7.5));
#4280=DIRECTION('',(0.,0.,-1.));
#4290=DIRECTION('',(-1.,0.,0.));
#4300=AXIS2_PLACEMENT_3D('',#4270,#4280,#4290);
#4310=CYLINDRICAL_SURFACE('',#4300,21.);
#4320=CARTESIAN_POINT('',(17.2459666924148,-11.9823467169048,7.5));
#4330=DIRECTION('',(0.,0.,-1.));
#4340=VECTOR('',#4330,1000.);
#4350=LINE('',#4320,#4340);
#4360=EDGE_CURVE('',#1010,#2770,#4350,.T.);
#4370=ORIENTED_EDGE('',*,*,#4360,.T.);
#4380=ORIENTED_EDGE('',*,*,#1770,.F.);
#4390=ORIENTED_EDGE('',*,*,#3330,.F.);
#4400=ORIENTED_EDGE('',*,*,#2850,.T.);
#4410=EDGE_LOOP('',(#4400,#4390,#4380,#4370));
#4420=FACE_OUTER_BOUND('',#4410,.T.);
#4430=ADVANCED_FACE('',(#4420),#4310,.T.);
#4440=CARTESIAN_POINT('',(0.,0.,7.5));
#4450=DIRECTION('',(0.,0.,-1.));
#4460=DIRECTION('',(-1.,0.,0.));
#4470=AXIS2_PLACEMENT_3D('',#4440,#4450,#4460);
#4480=CYLINDRICAL_SURFACE('',#4470,21.);
#4490=CARTESIAN_POINT('',(1.75403330758514,20.9266186269039,7.5));
#4500=DIRECTION('',(0.,0.,-1.));
#4510=VECTOR('',#4500,1000.);
#4520=LINE('',#4490,#4510);
#4530=EDGE_CURVE('',#1440,#2260,#4520,.T.);
#4540=ORIENTED_EDGE('',*,*,#4530,.T.);
#4550=ORIENTED_EDGE('',*,*,#1450,.F.);
#4560=CARTESIAN_POINT('',(-1.75403330758515,20.9266186269039,7.5));
#4570=DIRECTION('',(0.,0.,-1.));
#4580=VECTOR('',#4570,1000.);
#4590=LINE('',#4560,#4580);
#4600=EDGE_CURVE('',#1350,#2350,#4590,.T.);
#4610=ORIENTED_EDGE('',*,*,#4600,.F.);
#4620=ORIENTED_EDGE('',*,*,#2360,.T.);
#4630=EDGE_LOOP('',(#4620,#4610,#4550,#4540));
#4640=FACE_OUTER_BOUND('',#4630,.T.);
#4650=ADVANCED_FACE('',(#4640),#4480,.T.);
#4660=CARTESIAN_POINT('',(1.75403330758518,-20.9266186269039,7.5));
#4670=DIRECTION('',(-0.500000000000001,0.866025403784438,0.));
#4680=DIRECTION('',(-0.866025403784438,-0.500000000000001,0.));
#4690=AXIS2_PLACEMENT_3D('',#4660,#4670,#4680);
#4700=PLANE('',#4690);
#4710=CARTESIAN_POINT('',(1.75403330758518,-20.9266186269039,7.5));
#4720=DIRECTION('',(0.,0.,-1.));
#4730=VECTOR('',#4720,1000.);
#4740=LINE('',#4710,#4730);
#4750=EDGE_CURVE('',#990,#2690,#4740,.T.);
#4760=ORIENTED_EDGE('',*,*,#4750,.T.);
#4770=ORIENTED_EDGE('',*,*,#1020,.F.);
#4780=ORIENTED_EDGE('',*,*,#4360,.F.);
#4790=ORIENTED_EDGE('',*,*,#2780,.T.);
#4800=EDGE_LOOP('',(#4790,#4780,#4770,#4760));
#4810=FACE_OUTER_BOUND('',#4800,.T.);
#4820=ADVANCED_FACE('',(#4810),#4700,.F.);
#4830=CARTESIAN_POINT('',(0.,0.,7.5));
#4840=DIRECTION('',(0.,0.,-1.));
#4850=DIRECTION('',(-1.,0.,0.));
#4860=AXIS2_PLACEMENT_3D('',#4830,#4840,#4850);
#4870=CYLINDRICAL_SURFACE('',#4860,21.);
#4880=ORIENTED_EDGE('',*,*,#3010,.T.);
#4890=ORIENTED_EDGE('',*,*,#1110,.F.);
#4900=ORIENTED_EDGE('',*,*,#4750,.F.);
#4910=ORIENTED_EDGE('',*,*,#2700,.T.);
#4920=EDGE_LOOP('',(#4910,#4900,#4890,#4880));
#4930=FACE_OUTER_BOUND('',#4920,.T.);
#4940=ADVANCED_FACE('',(#4930),#4870,.T.);
#4950=CARTESIAN_POINT('',(-1.75403330758515,20.9266186269039,7.5));
#4960=DIRECTION('',(0.5,-0.866025403784439,0.));
#4970=DIRECTION('',(0.866025403784439,0.5,0.));
#4980=AXIS2_PLACEMENT_3D('',#4950,#4960,#4970);
#4990=PLANE('',#4980);
#5000=ORIENTED_EDGE('',*,*,#4600,.T.);
#5010=ORIENTED_EDGE('',*,*,#1360,.F.);
#5020=ORIENTED_EDGE('',*,*,#3160,.F.);
#5030=ORIENTED_EDGE('',*,*,#2440,.T.);
#5040=EDGE_LOOP('',(#5030,#5020,#5010,#5000));
#5050=FACE_OUTER_BOUND('',#5040,.T.);
#5060=ADVANCED_FACE('',(#5050),#4990,.F.);
#5070=CARTESIAN_POINT('',(17.2459666924149,11.9823467169047,7.5));
#5080=DIRECTION('',(-0.5,-0.866025403784439,0.));
#5090=DIRECTION('',(0.866025403784439,-0.5,0.));
#5100=AXIS2_PLACEMENT_3D('',#5070,#5080,#5090);
#5110=PLANE('',#5100);
#5120=ORIENTED_EDGE('',*,*,#4210,.T.);
#5130=ORIENTED_EDGE('',*,*,#1530,.F.);
#5140=ORIENTED_EDGE('',*,*,#4530,.F.);
#5150=ORIENTED_EDGE('',*,*,#2270,.T.);
#5160=EDGE_LOOP('',(#5150,#5140,#5130,#5120));
#5170=FACE_OUTER_BOUND('',#5160,.T.);
#5180=ADVANCED_FACE('',(#5170),#5110,.F.);
#5190=CARTESIAN_POINT('',(0.,0.,0.));
#5200=DIRECTION('',(0.,0.,-1.));
#5210=DIRECTION('',(-1.,0.,-0.));
#5220=AXIS2_PLACEMENT_3D('',#5190,#5200,#5210);
#5230=CONICAL_SURFACE('',#5220,16.3,0.785398163397444);
#5240=CARTESIAN_POINT('',(16.3,1.99617428261019E-15,0.));
#5250=DIRECTION('',(0.707106781186544,8.65956056235489E-17,
-0.707106781186551));
#5260=VECTOR('',#5250,23.0516810666816);
#5270=LINE('',#5240,#5260);
#5280=EDGE_CURVE('',#3880,#1930,#5270,.T.);
#5290=ORIENTED_EDGE('',*,*,#5280,.F.);
#5300=ORIENTED_EDGE('',*,*,#1960,.F.);
#5310=CARTESIAN_POINT('',(-16.3,0.,0.));
#5320=DIRECTION('',(-0.707106781186544,0.,-0.707106781186551));
#5330=VECTOR('',#5320,23.0516810666816);
#5340=LINE('',#5310,#5330);
#5350=EDGE_CURVE('',#3970,#1950,#5340,.T.);
#5360=ORIENTED_EDGE('',*,*,#5350,.T.);
#5370=ORIENTED_EDGE('',*,*,#3980,.F.);
#5380=EDGE_LOOP('',(#5370,#5360,#5300,#5290));
#5390=FACE_OUTER_BOUND('',#5380,.T.);
#5400=ADVANCED_FACE('',(#5390),#5230,.F.);
#5410=CARTESIAN_POINT('',(0.,0.,6.49999999999998));
#5420=DIRECTION('',(0.,0.,1.));
#5430=DIRECTION('',(1.,0.,-0.));
#5440=AXIS2_PLACEMENT_3D('',#5410,#5420,#5430);
#5450=CONICAL_SURFACE('',#5440,15.3,0.785398163397444);
#5460=ORIENTED_EDGE('',*,*,#880,.F.);
#5470=ORIENTED_EDGE('',*,*,#3720,.T.);
#5480=EDGE_CURVE('',#3650,#3560,#3630,.T.);
#5490=ORIENTED_EDGE('',*,*,#5480,.F.);
#5500=ORIENTED_EDGE('',*,*,#3570,.F.);
#5510=EDGE_LOOP('',(#5500,#5490,#5470,#5460));
#5520=FACE_OUTER_BOUND('',#5510,.T.);
#5530=ADVANCED_FACE('',(#5520),#5450,.F.);
#5540=CARTESIAN_POINT('',(0.,0.,7.5));
#5550=DIRECTION('',(0.,0.,-1.));
#5560=DIRECTION('',(-1.,0.,0.));
#5570=AXIS2_PLACEMENT_3D('',#5540,#5550,#5560);
#5580=CYLINDRICAL_SURFACE('',#5570,15.3);
#5590=EDGE_CURVE('',#3880,#3970,#3950,.T.);
#5600=ORIENTED_EDGE('',*,*,#5590,.T.);
#5610=ORIENTED_EDGE('',*,*,#3890,.T.);
#5620=ORIENTED_EDGE('',*,*,#5480,.T.);
#5630=ORIENTED_EDGE('',*,*,#4040,.F.);
#5640=EDGE_LOOP('',(#5630,#5620,#5610,#5600));
#5650=FACE_OUTER_BOUND('',#5640,.T.);
#5660=ADVANCED_FACE('',(#5650),#5580,.F.);
#5670=CARTESIAN_POINT('',(0.,0.,0.));
#5680=DIRECTION('',(0.,0.,-1.));
#5690=DIRECTION('',(-1.,0.,-0.));
#5700=AXIS2_PLACEMENT_3D('',#5670,#5680,#5690);
#5710=CONICAL_SURFACE('',#5700,16.3,0.785398163397444);
#5720=ORIENTED_EDGE('',*,*,#5280,.T.);
#5730=ORIENTED_EDGE('',*,*,#5590,.F.);
#5740=ORIENTED_EDGE('',*,*,#5350,.F.);
#5750=ORIENTED_EDGE('',*,*,#1980,.F.);
#5760=EDGE_LOOP('',(#5750,#5740,#5730,#5720));
#5770=FACE_OUTER_BOUND('',#5760,.T.);
#5780=ADVANCED_FACE('',(#5770),#5710,.F.);
#5790=CLOSED_SHELL('',(#420,#730,#1810,#2890,#3060,#3230,#3450,#3770,
#4090,#4260,#4430,#4650,#4820,#4940,#5060,#5180,#5400,#5530,#5660,#5780)
);
#5800=MANIFOLD_SOLID_BREP('',#5790);
#5810=CARTESIAN_POINT('',(0.,0.,0.));
#5820=DIRECTION('',(0.,0.,1.));
#5830=DIRECTION('',(1.,0.,0.));
#5840=AXIS2_PLACEMENT_3D('',#5810,#5820,#5830);
#5850=APPLICATION_CONTEXT(' ');
#5860=APPLICATION_PROTOCOL_DEFINITION(' ','automotive_design',1998,#5850
);
#5870=PRODUCT_CONTEXT('',#5850,'mechanical');
#5880=PRODUCT_DEFINITION_CONTEXT('part definition',#5850,'design');
#5890=PRODUCT('AS_M32L','AS_M32L','',(#5870));
#5900=PRODUCT_RELATED_PRODUCT_CATEGORY('part',' ',(#5890));
#5910=PRODUCT_DEFINITION_FORMATION_WITH_SPECIFIED_SOURCE('','',#5890,
.BOUGHT.);
#5920=PRODUCT_DEFINITION('',' ',#5910,#5880);
#5930=PRODUCT_DEFINITION_SHAPE('','',#5920);
#5940=DIMENSIONAL_EXPONENTS(1.,0.,0.,0.,0.,0.,0.);
#5950=DIMENSIONAL_EXPONENTS(0.,0.,0.,0.,0.,0.,0.);
#5960=DIMENSIONAL_EXPONENTS(0.,0.,0.,0.,0.,0.,0.);
#5970=(LENGTH_UNIT() NAMED_UNIT(*) SI_UNIT(.MILLI.,.METRE.));
#5980=(NAMED_UNIT(*) PLANE_ANGLE_UNIT() SI_UNIT($,.RADIAN.));
#5990=(NAMED_UNIT(*) SI_UNIT($,.STERADIAN.) SOLID_ANGLE_UNIT());
#6000=(GEOMETRIC_REPRESENTATION_CONTEXT(3) 
GLOBAL_UNCERTAINTY_ASSIGNED_CONTEXT((#6010)) 
GLOBAL_UNIT_ASSIGNED_CONTEXT((#5970,#5980,#5990)) REPRESENTATION_CONTEXT
('',''));
#6010=UNCERTAINTY_MEASURE_WITH_UNIT(LENGTH_MEASURE(1.E-6),#5970,
'distance_accuracy_value','maximum gap value');
#6020=ADVANCED_BREP_SHAPE_REPRESENTATION('',(#5840,#5800),#6000);
#6030=SHAPE_DEFINITION_REPRESENTATION(#5930,#6020);
#6040=COLOUR_RGB('',0.752941250801086,0.752941250801086,
0.752941250801086);
#6050=FILL_AREA_STYLE_COLOUR('',#6040);
#6060=FILL_AREA_STYLE('',(#6050));
#6070=SURFACE_STYLE_FILL_AREA(#6060);
#6080=SURFACE_SIDE_STYLE('',(#6070));
#6090=SURFACE_STYLE_USAGE(.BOTH.,#6080);
#6100=PRESENTATION_STYLE_ASSIGNMENT((#6090));
#6110=STYLED_ITEM('',(#6100),#5800);
#6120=DRAUGHTING_MODEL('',(#6110),#6000);
ENDSEC;
END-ISO-10303-21;
